Many A Chilled Heart

Based on a prayer by Bahá'u'lláh

Capo V

|--------------------------------------3-------------2----------|
|-------5---------------7------------0---0---------0---0--------|
|-----0----0----------0---0--------0------0------0------0-------|
|---0--------0------0-------0-----------------------------------|
|-7------------5--5-----------5--3-----------3-3----------3-----|
|---------------------------------------------------------------|

||: Many a chilled heart, O my God,

hath been set ablaze by the fire of Thy Cause

and many a slumberer hath been wakened

||: by the sweetness of Thy voice, by the sweetness of Thy voice. :||

 |---------------------------------------------------------|
 |-------1--------------------------1-----------3----------|
 |-----2--2---------2-----0--------0--0--------0--0--------|
 |---2------2-----2-----0--0-----2-----2-----4-----4-------|
 |-0----------0-0-----2------2-3---------3-5---------5-----|
 |---------------------------------------------------------|

How many are the strangers who have sought shelter beneath

the shadow of the tree of Thy oneness,

and how numerous the thirsty ones who have panted after

the fountain of Thy living waters in Thy days!


Put to music by Bonnie Lisbeth
Listen to her music here https://bonnielisbeth.bandcamp.com/releases

Download PDF