O Lord Provide

 

Based on a prayer by the Báb

Capo IV


|-------------------------------------|
|-------0--------0---------0--------0-|
|-----0--------0---------0--------0---|
|---0--------0---------0--------0-----|
|3--------2---------0--------2--------|
|-------------------------------------| 2x

|-------------------------------------|
|-------3--------3---------3--------3-|
|-----0--------0---------0--------0---|
|---0--------0---------0--------0-----|
|3--------2---------0--------2--------|
|-------------------------------------| 2x

||: O Lord! Provide for the speedy growth of the Tree

of Thy divine Unity :||

Am | C | G | D

water it then, with the flowing waters of

Thy good-pleasure, thy good pleasure

and cause it, before the revelations of Thy divine assurance,

Thine assurance

||: to yield such fruits as Thou desirest,

as Thou desirest, Thou desirest :||

O Lord! Provide for the speedy growth of the Tree

of Thy divine Unity

 

Put to music by Bonnie Lisbeth

Listen to her music here: http://bonnielisbeth.bandcamp.com/releases

Download PDF